  0
SECTION
  2
HEADER
  9
$ACADVER
  1
AC1015
  9
$ACADMAINTVER
 70
     6
  9
$DWGCODEPAGE
  3
ANSI_1254
  9
$INSBASE
 10
0.0
 20
0.0
 30
0.0
  9
$EXTMIN
 10
0.0
 20
0.0
 30
0.0
  9
$EXTMAX
 10
279.4
 20
215.9
 30
0.0
  9
$LIMMIN
 10
0.0
 20
0.0
  9
$LIMMAX
 10
279.4
 20
215.9
  9
$ORTHOMODE
 70
     0
  9
$REGENMODE
 70
     1
  9
$FILLMODE
 70
     1
  9
$QTEXTMODE
 70
     0
  9
$MIRRTEXT
 70
     1
  9
$LTSCALE
 40
1.0
  9
$ATTMODE
 70
     1
  9
$TEXTSIZE
 40
3.5
  9
$TRACEWID
 40
1.0
  9
$TEXTSTYLE
  7
Standard
  9
$CLAYER
  8
0
  9
$CELTYPE
  6
ByLayer
  9
$CECOLOR
 62
   256
  9
$CELTSCALE
 40
1.0
  9
$DISPSILH
 70
     0
  9
$DIMSCALE
 40
1.0
  9
$DIMASZ
 40
3.5
  9
$DIMEXO
 40
1.0
  9
$DIMDLI
 40
3.75
  9
$DIMRND
 40
0.0
  9
$DIMDLE
 40
0.0
  9
$DIMEXE
 40
1.0
  9
$DIMTP
 40
0.0
  9
$DIMTM
 40
0.0
  9
$DIMTXT
 40
3.5
  9
$DIMCEN
 40
2.5
  9
$DIMTSZ
 40
0.0
  9
$DIMTOL
 70
     0
  9
$DIMLIM
 70
     0
  9
$DIMTIH
 70
     1
  9
$DIMTOH
 70
     1
  9
$DIMSE1
 70
     0
  9
$DIMSE2
 70
     0
  9
$DIMTAD
 70
     1
  9
$DIMZIN
 70
     0
  9
$DIMBLK
  1

  9
$DIMASO
 70
     1
  9
$DIMSHO
 70
     1
  9
$DIMPOST
  1

  9
$DIMAPOST
  1

  9
$DIMALT
 70
     0
  9
$DIMALTD
 70
     3
  9
$DIMALTF
 40
0.0393700787
  9
$DIMLFAC
 40
1.0
  9
$DIMTOFL
 70
     1
  9
$DIMTVP
 40
0.0
  9
$DIMTIX
 70
     0
  9
$DIMSOXD
 70
     0
  9
$DIMSAH
 70
     0
  9
$DIMBLK1
  1

  9
$DIMBLK2
  1

  9
$DIMSTYLE
  2
ISO-25
  9
$DIMCLRD
 70
     0
  9
$DIMCLRE
 70
     0
  9
$DIMCLRT
 70
     0
  9
$DIMTFAC
 40
1.0
  9
$DIMGAP
 40
1.524
  9
$DIMJUST
 70
     0
  9
$DIMSD1
 70
     0
  9
$DIMSD2
 70
     0
  9
$DIMTOLJ
 70
     0
  9
$DIMTZIN
 70
     0
  9
$DIMALTZ
 70
     0
  9
$DIMALTTZ
 70
     0
  9
$DIMUPT
 70
     0
  9
$DIMDEC
 70
     2
  9
$DIMTDEC
 70
     2
  9
$DIMALTU
 70
     2
  9
$DIMALTTD
 70
     3
  9
$DIMTXSTY
  7
Standard
  9
$DIMAUNIT
 70
     0
  9
$DIMADEC
 70
     2
  9
$DIMALTRND
 40
0.0
  9
$DIMAZIN
 70
     0
  9
$DIMDSEP
 70
    44
  9
$DIMATFIT
 70
     3
  9
$DIMFRAC
 70
     0
  9
$DIMLDRBLK
  1

  9
$DIMLUNIT
 70
     2
  9
$DIMLWD
 70
    -2
  9
$DIMLWE
 70
    -2
  9
$DIMTMOVE
 70
     0
  9
$LUNITS
 70
     2
  9
$LUPREC
 70
     2
  9
$SKETCHINC
 40
1.0
  9
$FILLETRAD
 40
10.0
  9
$AUNITS
 70
     0
  9
$AUPREC
 70
     2
  9
$MENU
  1
.
  9
$ELEVATION
 40
0.0
  9
$PELEVATION
 40
0.0
  9
$THICKNESS
 40
0.0
  9
$LIMCHECK
 70
     0
  9
$CHAMFERA
 40
0.0
  9
$CHAMFERB
 40
0.0
  9
$CHAMFERC
 40
0.0
  9
$CHAMFERD
 40
0.0
  9
$SKPOLY
 70
     0
  9
$TDCREATE
 40
2458985.633261447
  9
$TDUCREATE
 40
2458985.508261447
  9
$TDUPDATE
 40
2458985.633261713
  9
$TDUUPDATE
 40
2458985.508261713
  9
$TDINDWG
 40
0.0000000116
  9
$TDUSRTIMER
 40
0.0000000116
  9
$USRTIMER
 70
     1
  9
$ANGBASE
 50
0.0
  9
$ANGDIR
 70
     0
  9
$PDMODE
 70
     0
  9
$PDSIZE
 40
-1.0
  9
$PLINEWID
 40
0.0
  9
$SPLFRAME
 70
     0
  9
$SPLINETYPE
 70
     6
  9
$SPLINESEGS
 70
     8
  9
$HANDSEED
  5
CC
  9
$SURFTAB1
 70
     6
  9
$SURFTAB2
 70
     6
  9
$SURFTYPE
 70
     6
  9
$SURFU
 70
     6
  9
$SURFV
 70
     6
  9
$UCSBASE
  2

  9
$UCSNAME
  2

  9
$UCSORG
 10
0.0
 20
0.0
 30
0.0
  9
$UCSXDIR
 10
1.0
 20
0.0
 30
0.0
  9
$UCSYDIR
 10
0.0
 20
1.0
 30
0.0
  9
$UCSORTHOREF
  2

  9
$UCSORTHOVIEW
 70
     0
  9
$UCSORGTOP
 10
0.0
 20
0.0
 30
0.0
  9
$UCSORGBOTTOM
 10
0.0
 20
0.0
 30
0.0
  9
$UCSORGLEFT
 10
0.0
 20
0.0
 30
0.0
  9
$UCSORGRIGHT
 10
0.0
 20
0.0
 30
0.0
  9
$UCSORGFRONT
 10
0.0
 20
0.0
 30
0.0
  9
$UCSORGBACK
 10
0.0
 20
0.0
 30
0.0
  9
$PUCSBASE
  2

  9
$PUCSNAME
  2

  9
$PUCSORG
 10
0.0
 20
0.0
 30
0.0
  9
$PUCSXDIR
 10
1.0
 20
0.0
 30
0.0
  9
$PUCSYDIR
 10
0.0
 20
1.0
 30
0.0
  9
$PUCSORTHOREF
  2

  9
$PUCSORTHOVIEW
 70
     0
  9
$PUCSORGTOP
 10
0.0
 20
0.0
 30
0.0
  9
$PUCSORGBOTTOM
 10
0.0
 20
0.0
 30
0.0
  9
$PUCSORGLEFT
 10
0.0
 20
0.0
 30
0.0
  9
$PUCSORGRIGHT
 10
0.0
 20
0.0
 30
0.0
  9
$PUCSORGFRONT
 10
0.0
 20
0.0
 30
0.0
  9
$PUCSORGBACK
 10
0.0
 20
0.0
 30
0.0
  9
$USERI1
 70
     0
  9
$USERI2
 70
     0
  9
$USERI3
 70
     0
  9
$USERI4
 70
     0
  9
$USERI5
 70
     0
  9
$USERR1
 40
0.0
  9
$USERR2
 40
0.0
  9
$USERR3
 40
0.0
  9
$USERR4
 40
0.0
  9
$USERR5
 40
0.0
  9
$WORLDVIEW
 70
     1
  9
$SHADEDGE
 70
     3
  9
$SHADEDIF
 70
    70
  9
$TILEMODE
 70
     1
  9
$MAXACTVP
 70
    64
  9
$PINSBASE
 10
0.0
 20
0.0
 30
0.0
  9
$PLIMCHECK
 70
     0
  9
$PEXTMIN
 10
1.0000000000E+20
 20
1.0000000000E+20
 30
1.0000000000E+20
  9
$PEXTMAX
 10
-1.0000000000E+20
 20
-1.0000000000E+20
 30
-1.0000000000E+20
  9
$PLIMMIN
 10
0.0
 20
0.0
  9
$PLIMMAX
 10
420.0
 20
297.0
  9
$UNITMODE
 70
     0
  9
$VISRETAIN
 70
     1
  9
$PLINEGEN
 70
     0
  9
$PSLTSCALE
 70
     1
  9
$TREEDEPTH
 70
  3020
  9
$CMLSTYLE
  2
Standard
  9
$CMLJUST
 70
     0
  9
$CMLSCALE
 40
20.0
  9
$PROXYGRAPHICS
 70
     1
  9
$MEASUREMENT
 70
     1
  9
$CELWEIGHT
370
    -1
  9
$ENDCAPS
280
     0
  9
$JOINSTYLE
280
     0
  9
$LWDISPLAY
290
     1
  9
$INSUNITS
 70
     4
  9
$HYPERLINKBASE
  1

  9
$STYLESHEET
  1

  9
$XEDIT
290
     1
  9
$CEPSNTYPE
380
     0
  9
$PSTYLEMODE
290
     1
  9
$FINGERPRINTGUID
  2
{3c1a819c-327e-4715-9313-a544503a025d}
  9
$VERSIONGUID
  2
{FAEB1C32-E019-11D5-929B-00C0DF256EC4}
  9
$EXTNAMES
290
     1
  9
$PSVPSCALE
 40
0.0
  9
$OLESTARTUP
290
     0
  0
ENDSEC
  0
SECTION
  2
CLASSES
  0
CLASS
  1
ACDBDICTIONARYWDFLT
  2
AcDbDictionaryWithDefault
  3
ObjectDBX Classes
 90
        0
280
     0
281
     0
  0
CLASS
  1
VISUALSTYLE
  2
AcDbVisualStyle
  3
ObjectDBX Classes
 90
     4095
280
     0
281
     0
  0
CLASS
  1
MATERIAL
  2
AcDbMaterial
  3
ObjectDBX Classes
 90
     1153
280
     0
281
     0
  0
CLASS
  1
SCALE
  2
AcDbScale
  3
ObjectDBX Classes
 90
     1153
280
     0
281
     0
  0
CLASS
  1
TABLESTYLE
  2
AcDbTableStyle
  3
ObjectDBX Classes
 90
     4095
280
     0
281
     0
  0
CLASS
  1
MLEADERSTYLE
  2
AcDbMLeaderStyle
  3
ACDB_MLEADERSTYLE_CLASS
 90
     4095
280
     0
281
     0
  0
CLASS
  1
SUN
  2
AcDbSun
  3
SCENEOE
 90
     1153
280
     0
281
     0
  0
CLASS
  1
ACDBPLACEHOLDER
  2
AcDbPlaceHolder
  3
ObjectDBX Classes
 90
        0
280
     0
281
     0
  0
CLASS
  1
LAYOUT
  2
AcDbLayout
  3
ObjectDBX Classes
 90
        0
280
     0
281
     0
  0
ENDSEC
  0
SECTION
  2
TABLES
  0
TABLE
  2
VPORT
  5
8
330
0
100
AcDbSymbolTable
 70
     1
  0
VPORT
  5
29
330
8
100
AcDbSymbolTableRecord
100
AcDbViewportTableRecord
  2
*Active
 70
     0
 10
0.0
 20
0.0
 11
1.0
 21
1.0
 12
139.7
 22
107.95
 13
0.0
 23
0.0
 14
10.0
 24
10.0
 15
10.0
 25
10.0
 16
0.0
 26
0.0
 36
1.0
 17
0.0
 27
0.0
 37
0.0
 40
215.9
 41
1.2941176471
 42
50.0
 43
0.0
 44
0.0
 50
0.0
 51
0.0
 71
     0
 72
  2000
 73
     1
 74
     3
 75
     0
 76
     0
 77
     0
 78
     0
281
     0
 65
     1
110
0.0
120
0.0
130
0.0
111
1.0
121
0.0
131
0.0
112
0.0
122
1.0
132
0.0
 79
     0
146
0.0
  0
ENDTAB
  0
TABLE
  2
LTYPE
  5
5
330
0
100
AcDbSymbolTable
 70
     6
  0
LTYPE
  5
14
330
5
100
AcDbSymbolTableRecord
100
AcDbLinetypeTableRecord
  2
ByBlock
 70
     0
  3

 72
    65
 73
     0
 40
0.0
  0
LTYPE
  5
15
330
5
100
AcDbSymbolTableRecord
100
AcDbLinetypeTableRecord
  2
ByLayer
 70
     0
  3

 72
    65
 73
     0
 40
0.0
  0
LTYPE
  5
16
330
5
100
AcDbSymbolTableRecord
100
AcDbLinetypeTableRecord
  2
Continuous
 70
     0
  3
Solid line
 72
    65
 73
     0
 40
0.0
  0
LTYPE
  5
6E
330
5
100
AcDbSymbolTableRecord
100
AcDbLinetypeTableRecord
  2
HIDDEN
 70
     0
  3
Hidden __ __ __ __ __ __ __ __ __ __ __ __ __ __
 72
    65
 73
     2
 40
1.905
 49
1.27
 74
     0
 49
-0.635
 74
     0
  0
LTYPE
  5
6F
330
5
100
AcDbSymbolTableRecord
100
AcDbLinetypeTableRecord
  2
PHANTOM
 70
     0
  3
Phantom ______  __  __  ______  __  __  ______
 72
    65
 73
     6
 40
12.7
 49
6.35
 74
     0
 49
-1.27
 74
     0
 49
1.27
 74
     0
 49
-1.27
 74
     0
 49
1.27
 74
     0
 49
-1.27
 74
     0
  0
LTYPE
  5
70
330
5
100
AcDbSymbolTableRecord
100
AcDbLinetypeTableRecord
  2
CENTER
 70
     0
  3
Center ____ _ ____ _ ____ _ ____ _ ____ _ ____
 72
    65
 73
     4
 40
10.16
 49
6.35
 74
     0
 49
-1.27
 74
     0
 49
1.27
 74
     0
 49
-1.27
 74
     0
  0
LTYPE
  5
71
330
5
100
AcDbSymbolTableRecord
100
AcDbLinetypeTableRecord
  2
CENTERX2
 70
     0
  3
Center (2x) ________  __  ________  __  _____
 72
    65
 73
     4
 40
20.32
 49
12.7
 74
     0
 49
-2.54
 74
     0
 49
2.54
 74
     0
 49
-2.54
 74
     0
  0
LTYPE
  5
72
330
5
100
AcDbSymbolTableRecord
100
AcDbLinetypeTableRecord
  2
DOT2
 70
     0
  3
Dot (.5x) ........................................
 72
    65
 73
     2
 40
0.635
 49
0.0
 74
     0
 49
-0.635
 74
     0
  0
ENDTAB
  0
TABLE
  2
LAYER
  5
2
330
0
100
AcDbSymbolTable
 70
    17
  0
LAYER
  5
10
330
2
100
AcDbSymbolTableRecord
100
AcDbLayerTableRecord
  2
0
 70
     0
 62
     7
  6
Continuous
370
    -3
390
F
  0
LAYER
  5
73
330
2
100
AcDbSymbolTableRecord
100
AcDbLayerTableRecord
  2
FORMAT
 70
     0
 62
     7
  6
Continuous
370
    -3
390
F
  0
LAYER
  5
74
330
2
100
AcDbSymbolTableRecord
100
AcDbLayerTableRecord
  2
YARDIMCI_GEOMETRI
 70
     0
 62
    -6
  6
Continuous
290
     0
370
    -3
390
F
  0
LAYER
  5
75
330
2
100
AcDbSymbolTableRecord
100
AcDbLayerTableRecord
  2
SAYFA_CERCEVESI
 70
     0
 62
     7
  6
Continuous
370
    25
390
F
  0
LAYER
  5
76
330
2
100
AcDbSymbolTableRecord
100
AcDbLayerTableRecord
  2
ANTET
 70
     0
 62
     7
  6
Continuous
370
    -3
390
F
  0
LAYER
  5
77
330
2
100
AcDbSymbolTableRecord
100
AcDbLayerTableRecord
  2
OLCU
 70
     0
 62
   150
  6
Continuous
370
    -3
390
F
  0
LAYER
  5
78
330
2
100
AcDbSymbolTableRecord
100
AcDbLayerTableRecord
  2
METIN
 70
     0
 62
    96
  6
Continuous
370
    -3
390
F
  0
LAYER
  5
79
330
2
100
AcDbSymbolTableRecord
100
AcDbLayerTableRecord
  2
BALON
 70
     0
 62
     5
  6
Continuous
370
    -3
390
F
  0
LAYER
  5
7A
330
2
100
AcDbSymbolTableRecord
100
AcDbLayerTableRecord
  2
VURGU
 70
     0
 62
     7
  6
Continuous
370
    -3
390
F
  0
LAYER
  5
7B
330
2
100
AcDbSymbolTableRecord
100
AcDbLayerTableRecord
  2
SILIK
 70
     0
 62
     7
  6
Continuous
370
    -3
390
F
  0
LAYER
  5
7C
330
2
100
AcDbSymbolTableRecord
100
AcDbLayerTableRecord
  2
MODEL
 70
     0
 62
     7
  6
Continuous
370
    -3
390
F
  0
LAYER
  5
7D
330
2
100
AcDbSymbolTableRecord
100
AcDbLayerTableRecord
  2
DETAYLANDıRMA
 70
     0
 62
   190
  6
Continuous
370
    -3
390
F
  0
LAYER
  5
7E
330
2
100
AcDbSymbolTableRecord
100
AcDbLayerTableRecord
  2
TOLERANS
 70
     0
 62
   230
  6
Continuous
370
    -3
390
F
  0
LAYER
  5
7F
330
2
100
AcDbSymbolTableRecord
100
AcDbLayerTableRecord
  2
MERKEZ_CIZGILERI
 70
     0
 62
    30
  6
Continuous
370
    -3
390
F
  0
LAYER
  5
80
330
2
100
AcDbSymbolTableRecord
100
AcDbLayerTableRecord
  2
KESIT-DETAY_CIZGILERI
 70
     0
 62
     7
  6
Continuous
370
    -3
390
F
  0
LAYER
  5
81
330
2
100
AcDbSymbolTableRecord
100
AcDbLayerTableRecord
  2
\U+041E\U+0421\U+0415\U+0412\U+042B\U+0415
 70
     0
 62
     7
  6
Continuous
370
    -3
390
F
  0
LAYER
  5
82
330
2
100
AcDbSymbolTableRecord
100
AcDbLayerTableRecord
  2
\U+0412\U+041E\U+0414\U+042F\U+041D\U+042B\U+0415_\U+0417\U+041D\U+0410\U+041A\U+0418
 70
     0
 62
    11
  6
Continuous
370
    -3
390
F
  0
ENDTAB
  0
TABLE
  2
STYLE
  5
3
330
0
100
AcDbSymbolTable
 70
     1
  0
STYLE
  5
11
330
3
100
AcDbSymbolTableRecord
100
AcDbTextStyleTableRecord
  2
Standard
 70
     0
 40
0.0
 41
1.0
 50
0.0
 71
     0
 42
3.5
  3
txt
  4

  0
ENDTAB
  0
TABLE
  2
VIEW
  5
6
330
0
100
AcDbSymbolTable
 70
     0
  0
ENDTAB
  0
TABLE
  2
UCS
  5
7
330
0
100
AcDbSymbolTable
 70
     0
  0
ENDTAB
  0
TABLE
  2
APPID
  5
9
330
0
100
AcDbSymbolTable
 70
     1
  0
APPID
  5
12
330
9
100
AcDbSymbolTableRecord
100
AcDbRegAppTableRecord
  2
ACAD
 70
     0
  0
ENDTAB
  0
TABLE
  2
DIMSTYLE
  5
A
330
0
100
AcDbSymbolTable
 70
     1
100
AcDbDimStyleTable
  0
DIMSTYLE
105
27
330
A
100
AcDbSymbolTableRecord
100
AcDbDimStyleTableRecord
  2
ISO-25
 70
     0
 41
2.5
 42
0.625
 43
3.75
 44
1.25
 73
     0
 74
     0
 77
     1
 78
     8
140
2.5
141
2.5
143
0.0393700787
147
0.625
171
     3
172
     1
178
     0
271
     2
272
     2
274
     3
278
    44
283
     0
284
     8
340
11
  0
ENDTAB
  0
TABLE
  2
BLOCK_RECORD
  5
1
330
0
100
AcDbSymbolTable
 70
     2
  0
BLOCK_RECORD
  5
1F
330
1
100
AcDbSymbolTableRecord
100
AcDbBlockTableRecord
  2
*Model_Space
340
22
  0
BLOCK_RECORD
  5
1B
330
1
100
AcDbSymbolTableRecord
100
AcDbBlockTableRecord
  2
*Paper_Space
340
1E
  0
BLOCK_RECORD
  5
23
330
1
100
AcDbSymbolTableRecord
100
AcDbBlockTableRecord
  2
*Paper_Space0
340
26
  0
BLOCK_RECORD
  5
87
330
1
100
AcDbSymbolTableRecord
100
AcDbBlockTableRecord
  2
SW_CENTERMARKSYMBOL_0
340
0
102
{BLKREFS
331
92
102
}
  0
ENDTAB
  0
ENDSEC
  0
SECTION
  2
BLOCKS
  0
BLOCK
  5
20
330
1F
100
AcDbEntity
  8
0
100
AcDbBlockBegin
  2
*Model_Space
 70
     0
 10
0.0
 20
0.0
 30
0.0
  3
*Model_Space
  1

  0
ENDBLK
  5
21
330
1F
100
AcDbEntity
  8
0
100
AcDbBlockEnd
  0
BLOCK
  5
1C
330
1B
100
AcDbEntity
 67
     1
  8
0
100
AcDbBlockBegin
  2
*Paper_Space
 70
     0
 10
0.0
 20
0.0
 30
0.0
  3
*Paper_Space
  1

  0
ENDBLK
  5
1D
330
1B
100
AcDbEntity
 67
     1
  8
0
100
AcDbBlockEnd
  0
BLOCK
  5
24
330
23
100
AcDbEntity
  8
0
100
AcDbBlockBegin
  2
*Paper_Space0
 70
     0
 10
0.0
 20
0.0
 30
0.0
  3
*Paper_Space0
  1

  0
ENDBLK
  5
25
330
23
100
AcDbEntity
  8
0
100
AcDbBlockEnd
  0
BLOCK
  5
88
330
87
100
AcDbEntity
  8
0
100
AcDbBlockBegin
  2
SW_CENTERMARKSYMBOL_0
 70
     0
 10
0.0
 20
0.0
 30
0.0
  3
SW_CENTERMARKSYMBOL_0
  1

  0
LINE
  5
8A
330
87
100
AcDbEntity
  8
FORMAT
 62
     0
100
AcDbLine
 10
0.0
 20
0.0
 30
0.0
 11
0.0
 21
2.5
 31
0.0
  0
LINE
  5
8B
330
87
100
AcDbEntity
  8
FORMAT
 62
     0
100
AcDbLine
 10
0.0
 20
0.0
 30
0.0
 11
-2.5
 21
0.0
 31
0.0
  0
LINE
  5
8C
330
87
100
AcDbEntity
  8
FORMAT
 62
     0
100
AcDbLine
 10
0.0
 20
0.0
 30
0.0
 11
0.0
 21
-2.5
 31
0.0
  0
LINE
  5
8D
330
87
100
AcDbEntity
  8
FORMAT
 62
     0
100
AcDbLine
 10
0.0
 20
0.0
 30
0.0
 11
2.5
 21
0.0
 31
0.0
  0
LINE
  5
8E
330
87
100
AcDbEntity
  8
FORMAT
 62
     0
100
AcDbLine
 10
0.0
 20
5.0
 30
0.0
 11
0.0
 21
190.0
 31
0.0
  0
LINE
  5
8F
330
87
100
AcDbEntity
  8
FORMAT
 62
     0
100
AcDbLine
 10
-5.0
 20
0.0
 30
0.0
 11
-190.0
 21
0.0
 31
0.0
  0
LINE
  5
90
330
87
100
AcDbEntity
  8
FORMAT
 62
     0
100
AcDbLine
 10
0.0
 20
-5.0
 30
0.0
 11
0.0
 21
-190.0
 31
0.0
  0
LINE
  5
91
330
87
100
AcDbEntity
  8
FORMAT
 62
     0
100
AcDbLine
 10
5.0
 20
0.0
 30
0.0
 11
190.0
 21
0.0
 31
0.0
  0
ENDBLK
  5
89
330
87
100
AcDbEntity
  8
0
100
AcDbBlockEnd
  0
ENDSEC
  0
SECTION
  2
ENTITIES
  0
CIRCLE
  5
83
330
1F
100
AcDbEntity
  8
0
  6
Continuous
 62
     7
370
    25
100
AcDbCircle
 10
134.5049259597
 20
104.3165406423
 30
0.0
 40
157.5
  0
CIRCLE
  5
84
330
1F
100
AcDbEntity
  8
0
  6
Continuous
 62
     7
370
    25
100
AcDbCircle
 10
134.5049259597
 20
104.3165406423
 30
0.0
 40
128.9
  0
CIRCLE
  5
85
330
1F
100
AcDbEntity
  8
0
  6
Continuous
 62
     7
370
    25
100
AcDbCircle
 10
134.5049259597
 20
104.3165406423
 30
0.0
 40
169.0
  0
CIRCLE
  5
86
330
1F
100
AcDbEntity
  8
0
  6
Continuous
 62
     7
370
    25
100
AcDbCircle
 10
134.5049259597
 20
104.3165406423
 30
0.0
 40
187.5
  0
INSERT
  5
92
330
1F
100
AcDbEntity
  8
FORMAT
 62
     7
100
AcDbBlockReference
  2
SW_CENTERMARKSYMBOL_0
 10
134.5049259597
 20
104.3165406423
 30
0.0
  0
LINE
  5
93
330
1F
100
AcDbEntity
  8
0
  6
Continuous
 62
     7
370
    25
100
AcDbLine
 10
322.0049259597
 20
390.104697533
 30
0.0
 11
322.0049259597
 21
425.104697533
 31
0.0
  0
LINE
  5
94
330
1F
100
AcDbEntity
  8
0
  6
Continuous
 62
     7
370
    25
100
AcDbLine
 10
-52.9950740403
 20
425.104697533
 30
0.0
 11
-52.9950740403
 21
390.104697533
 31
0.0
  0
LINE
  5
95
330
1F
100
AcDbEntity
  8
0
  6
Continuous
 62
     7
370
    25
100
AcDbLine
 10
303.5049259597
 20
425.104697533
 30
0.0
 11
292.0049259597
 21
458.104697533
 31
0.0
  0
LINE
  5
96
330
1F
100
AcDbEntity
  8
0
  6
Continuous
 62
     7
370
    25
100
AcDbLine
 10
-22.9950740403
 20
458.104697533
 30
0.0
 11
-34.4950740403
 21
425.104697533
 31
0.0
  0
LINE
  5
97
330
1F
100
AcDbEntity
  8
0
  6
Continuous
 62
     7
370
    25
100
AcDbLine
 10
292.0049259597
 20
458.104697533
 30
0.0
 11
292.0049259597
 21
614.104697533
 31
0.0
  0
LINE
  5
98
330
1F
100
AcDbEntity
  8
0
  6
Continuous
 62
     7
370
    25
100
AcDbLine
 10
-22.9950740403
 20
614.104697533
 30
0.0
 11
-22.9950740403
 21
458.104697533
 31
0.0
  0
LINE
  5
99
330
1F
100
AcDbEntity
  8
0
  6
Continuous
 62
     7
370
    25
100
AcDbLine
 10
322.0049259597
 20
390.104697533
 30
0.0
 11
-52.9950740403
 21
390.104697533
 31
0.0
  0
LINE
  5
9A
330
1F
100
AcDbEntity
  8
0
  6
Continuous
 62
     7
370
    25
100
AcDbLine
 10
322.0049259597
 20
425.104697533
 30
0.0
 11
-52.9950740403
 21
425.104697533
 31
0.0
  0
LINE
  5
9B
330
1F
100
AcDbEntity
  8
0
  6
Continuous
 62
     7
370
    25
100
AcDbLine
 10
292.0049259597
 20
458.104697533
 30
0.0
 11
-22.9950740403
 21
458.104697533
 31
0.0
  0
LINE
  5
9C
330
1F
100
AcDbEntity
  8
0
  6
Continuous
 62
     7
370
    25
100
AcDbLine
 10
292.0049259597
 20
614.104697533
 30
0.0
 11
-22.9950740403
 21
614.104697533
 31
0.0
  0
LINE
  5
9D
330
1F
100
AcDbEntity
  8
0
  6
Continuous
 62
     7
370
    25
100
AcDbLine
 10
-145.7877150195
 20
291.8165406423
 30
0.0
 11
-180.7877150195
 21
291.8165406423
 31
0.0
  0
LINE
  5
9E
330
1F
100
AcDbEntity
  8
0
  6
Continuous
 62
     7
370
    25
100
AcDbLine
 10
-180.7877150195
 20
-83.1834593577
 30
0.0
 11
-145.7877150195
 21
-83.1834593577
 31
0.0
  0
LINE
  5
9F
330
1F
100
AcDbEntity
  8
0
  6
Continuous
 62
     7
370
    25
100
AcDbLine
 10
-180.7877150195
 20
273.3165406423
 30
0.0
 11
-213.7877150195
 21
261.8165406423
 31
0.0
  0
LINE
  5
A0
330
1F
100
AcDbEntity
  8
0
  6
Continuous
 62
     7
370
    25
100
AcDbLine
 10
-213.7877150195
 20
-53.1834593577
 30
0.0
 11
-180.7877150195
 21
-64.6834593577
 31
0.0
  0
LINE
  5
A1
330
1F
100
AcDbEntity
  8
0
  6
Continuous
 62
     7
370
    25
100
AcDbLine
 10
-213.7877150195
 20
261.8165406423
 30
0.0
 11
-369.7877150195
 21
261.8165406423
 31
0.0
  0
LINE
  5
A2
330
1F
100
AcDbEntity
  8
0
  6
Continuous
 62
     7
370
    25
100
AcDbLine
 10
-369.7877150195
 20
-53.1834593577
 30
0.0
 11
-213.7877150195
 21
-53.1834593577
 31
0.0
  0
LINE
  5
A3
330
1F
100
AcDbEntity
  8
0
  6
Continuous
 62
     7
370
    25
100
AcDbLine
 10
-145.7877150195
 20
291.8165406423
 30
0.0
 11
-145.7877150195
 21
-83.1834593577
 31
0.0
  0
LINE
  5
A4
330
1F
100
AcDbEntity
  8
0
  6
Continuous
 62
     7
370
    25
100
AcDbLine
 10
-180.7877150195
 20
291.8165406423
 30
0.0
 11
-180.7877150195
 21
-83.1834593577
 31
0.0
  0
LINE
  5
A5
330
1F
100
AcDbEntity
  8
0
  6
Continuous
 62
     7
370
    25
100
AcDbLine
 10
-213.7877150195
 20
261.8165406423
 30
0.0
 11
-213.7877150195
 21
-53.1834593577
 31
0.0
  0
LINE
  5
A6
330
1F
100
AcDbEntity
  8
0
  6
Continuous
 62
     7
370
    25
100
AcDbLine
 10
-369.7877150195
 20
261.8165406423
 30
0.0
 11
-369.7877150195
 21
-53.1834593577
 31
0.0
  0
LINE
  5
A7
330
1F
100
AcDbEntity
  8
0
  6
Continuous
 62
     7
370
    25
100
AcDbLine
 10
461.4626167634
 20
-83.1834593577
 30
0.0
 11
496.4626167634
 21
-83.1834593577
 31
0.0
  0
LINE
  5
A8
330
1F
100
AcDbEntity
  8
0
  6
Continuous
 62
     7
370
    25
100
AcDbLine
 10
496.4626167634
 20
291.8165406423
 30
0.0
 11
461.4626167634
 21
291.8165406423
 31
0.0
  0
LINE
  5
A9
330
1F
100
AcDbEntity
  8
0
  6
Continuous
 62
     7
370
    25
100
AcDbLine
 10
496.4626167634
 20
-64.6834593577
 30
0.0
 11
529.4626167634
 21
-53.1834593577
 31
0.0
  0
LINE
  5
AA
330
1F
100
AcDbEntity
  8
0
  6
Continuous
 62
     7
370
    25
100
AcDbLine
 10
529.4626167634
 20
261.8165406423
 30
0.0
 11
496.4626167634
 21
273.3165406423
 31
0.0
  0
LINE
  5
AB
330
1F
100
AcDbEntity
  8
0
  6
Continuous
 62
     7
370
    25
100
AcDbLine
 10
529.4626167634
 20
-53.1834593577
 30
0.0
 11
685.4626167634
 21
-53.1834593577
 31
0.0
  0
LINE
  5
AC
330
1F
100
AcDbEntity
  8
0
  6
Continuous
 62
     7
370
    25
100
AcDbLine
 10
685.4626167634
 20
261.8165406423
 30
0.0
 11
529.4626167634
 21
261.8165406423
 31
0.0
  0
LINE
  5
AD
330
1F
100
AcDbEntity
  8
0
  6
Continuous
 62
     7
370
    25
100
AcDbLine
 10
461.4626167634
 20
104.3165406423
 30
0.0
 11
461.4626167634
 21
291.8165406423
 31
0.0
  0
LINE
  5
AE
330
1F
100
AcDbEntity
  8
0
  6
Continuous
 62
     7
370
    25
100
AcDbLine
 10
461.4626167634
 20
-83.1834593577
 30
0.0
 11
461.4626167634
 21
104.3165406423
 31
0.0
  0
LINE
  5
AF
330
1F
100
AcDbEntity
  8
0
  6
Continuous
 62
     7
370
    25
100
AcDbLine
 10
496.4626167634
 20
104.3165406423
 30
0.0
 11
496.4626167634
 21
291.8165406423
 31
0.0
  0
LINE
  5
B0
330
1F
100
AcDbEntity
  8
0
  6
Continuous
 62
     7
370
    25
100
AcDbLine
 10
496.4626167634
 20
-83.1834593577
 30
0.0
 11
496.4626167634
 21
104.3165406423
 31
0.0
  0
LINE
  5
B1
330
1F
100
AcDbEntity
  8
0
  6
Continuous
 62
     7
370
    25
100
AcDbLine
 10
529.4626167634
 20
104.3165406423
 30
0.0
 11
529.4626167634
 21
261.8165406423
 31
0.0
  0
LINE
  5
B2
330
1F
100
AcDbEntity
  8
0
  6
Continuous
 62
     7
370
    25
100
AcDbLine
 10
529.4626167634
 20
-53.1834593577
 30
0.0
 11
529.4626167634
 21
104.3165406423
 31
0.0
  0
LINE
  5
B3
330
1F
100
AcDbEntity
  8
0
  6
Continuous
 62
     7
370
    25
100
AcDbLine
 10
685.4626167634
 20
104.3165406423
 30
0.0
 11
685.4626167634
 21
261.8165406423
 31
0.0
  0
LINE
  5
B4
330
1F
100
AcDbEntity
  8
0
  6
Continuous
 62
     7
370
    25
100
AcDbLine
 10
685.4626167634
 20
-53.1834593577
 30
0.0
 11
685.4626167634
 21
104.3165406423
 31
0.0
  0
LINE
  5
B5
330
1F
100
AcDbEntity
  8
0
  6
Continuous
 62
     7
370
    25
100
AcDbLine
 10
-52.9950740403
 20
-182.7509352856
 30
0.0
 11
-52.9950740403
 21
-217.7509352856
 31
0.0
  0
LINE
  5
B6
330
1F
100
AcDbEntity
  8
0
  6
Continuous
 62
     7
370
    25
100
AcDbLine
 10
322.0049259597
 20
-217.7509352856
 30
0.0
 11
322.0049259597
 21
-182.7509352856
 31
0.0
  0
LINE
  5
B7
330
1F
100
AcDbEntity
  8
0
  6
Continuous
 62
     7
370
    25
100
AcDbLine
 10
-34.4950740403
 20
-217.7509352856
 30
0.0
 11
-22.9950740403
 21
-250.7509352856
 31
0.0
  0
LINE
  5
B8
330
1F
100
AcDbEntity
  8
0
  6
Continuous
 62
     7
370
    25
100
AcDbLine
 10
292.0049259597
 20
-250.7509352856
 30
0.0
 11
303.5049259597
 21
-217.7509352856
 31
0.0
  0
LINE
  5
B9
330
1F
100
AcDbEntity
  8
0
  6
Continuous
 62
     7
370
    25
100
AcDbLine
 10
-22.9950740403
 20
-250.7509352856
 30
0.0
 11
-22.9950740403
 21
-406.7509352856
 31
0.0
  0
LINE
  5
BA
330
1F
100
AcDbEntity
  8
0
  6
Continuous
 62
     7
370
    25
100
AcDbLine
 10
292.0049259597
 20
-406.7509352856
 30
0.0
 11
292.0049259597
 21
-250.7509352856
 31
0.0
  0
LINE
  5
BB
330
1F
100
AcDbEntity
  8
0
  6
Continuous
 62
     7
370
    25
100
AcDbLine
 10
-52.9950740403
 20
-182.7509352856
 30
0.0
 11
322.0049259597
 21
-182.7509352856
 31
0.0
  0
LINE
  5
BC
330
1F
100
AcDbEntity
  8
0
  6
Continuous
 62
     7
370
    25
100
AcDbLine
 10
-52.9950740403
 20
-217.7509352856
 30
0.0
 11
322.0049259597
 21
-217.7509352856
 31
0.0
  0
LINE
  5
BD
330
1F
100
AcDbEntity
  8
0
  6
Continuous
 62
     7
370
    25
100
AcDbLine
 10
-22.9950740403
 20
-250.7509352856
 30
0.0
 11
292.0049259597
 21
-250.7509352856
 31
0.0
  0
LINE
  5
BE
330
1F
100
AcDbEntity
  8
0
  6
Continuous
 62
     7
370
    25
100
AcDbLine
 10
-22.9950740403
 20
-406.7509352856
 30
0.0
 11
292.0049259597
 21
-406.7509352856
 31
0.0
  0
LINE
  5
BF
330
1F
100
AcDbEntity
  8
0
  6
Continuous
 62
     7
370
    25
100
AcDbLine
 10
501.5178467959
 20
-203.8831901054
 30
0.0
 11
428.7133661228
 21
-274.9425951669
 31
0.0
  0
LINE
  5
C0
330
1F
100
AcDbEntity
  8
0
  6
Continuous
 62
     7
370
    25
100
AcDbLine
 10
648.7339860978
 20
-500.3664776324
 30
0.0
 11
721.5384667709
 21
-429.3070725709
 31
0.0
  0
LINE
  5
C1
330
1F
100
AcDbEntity
  8
0
  6
Continuous
 62
     7
370
    25
100
AcDbLine
 10
512.2987884837
 20
-151.4396364555
 30
0.0
 11
495.9644498711
 21
-167.3824516937
 31
0.0
  0
LINE
  5
C2
330
1F
100
AcDbEntity
  8
0
  6
Continuous
 62
     7
370
    25
100
AcDbLine
 10
757.8937593651
 20
-435.7442165336
 30
0.0
 11
774.2280979776
 21
-419.8014012954
 31
0.0
  0
LWPOLYLINE
  5
C3
330
1F
100
AcDbEntity
  8
0
  6
Continuous
 62
     7
370
    25
100
AcDbPolyline
 90
      134
 70
   128
 43
0.0
 10
399.4278219461
 20
-349.7969079869
 10
399.5832337054
 20
-343.4636664909
 10
400.0491221987
 20
-337.2290321053
 10
400.8244478468
 20
-331.1069167374
 10
401.9074805948
 20
-325.1109812203
 10
403.2958037733
 20
-319.2546048307
 10
404.9863194904
 20
-313.5508554345
 10
406.9752555444
 20
-308.0124603267
 10
409.2581738414
 20
-302.6517778324
 10
411.8299802979
 20
-297.4807697306
 10
414.6849362081
 20
-292.5109745622
 10
417.816671049
 20
-287.7534818836
 10
421.2181966955
 20
-283.2189075212
 10
424.881923014
 20
-278.9173698835
 10
428.7996747984
 20
-274.8584673831
 10
432.9627100125
 20
-271.0512570184
 10
437.3617392969
 20
-267.5042341646
 10
441.9869466971
 20
-264.2253136166
 10
446.828011567
 20
-261.2218119283
 10
451.8741315977
 20
-258.5004310863
 10
457.1140469225
 20
-256.0672435556
 10
462.5360652411
 20
-253.9276787287
 10
468.1280879107
 20
-252.0865108116
 10
473.8776369421
 20
-250.5478481698
 10
479.7718828431
 20
-249.3151241613
 10
485.7976732464
 20
-248.3910894753
 10
491.9415622574
 20
-247.7778059946
 10
498.1898404573
 20
-247.4766421945
 10
504.5285654941
 20
-247.4882700891
 10
510.9435931938
 20
-247.812663732
 10
517.4206091212
 20
-248.4490992742
 10
523.945160521
 20
-249.3961565791
 10
530.5026885678
 20
-250.6517223916
 10
537.0785608523
 20
-252.2129950534
 10
543.6581040324
 20
-254.0764907547
 10
550.2266365742
 20
-256.2380513078
 10
556.7695015133
 20
-258.6928534261
 10
563.2720991597
 20
-261.435419486
 10
569.7199196752
 20
-264.4596297503
 10
576.0985754511
 20
-267.7587360234
 10
582.3938332121
 20
-271.3253767091
 10
588.5916457766
 20
-275.1515932374
 10
594.6781834012
 20
-279.2288478232
 10
600.6398646406
 20
-283.548042517
 10
606.4633866527
 20
-288.0995395068
 10
612.1357548829
 20
-292.8731826229
 10
617.6443120595
 20
-297.8583200009
 10
622.9767664375
 20
-303.0438278501
 10
628.1212192261
 20
-308.4181352748
 10
633.0661911396
 20
-313.9692500937
 10
637.8006480119
 20
-319.6847855989
 10
642.3140254186
 20
-325.5519881959
 10
646.5962522498
 20
-331.5577658614
 10
650.637773183
 20
-337.6887173571
 10
654.4295700046
 20
-343.9311621329
 10
657.9631817333
 20
-350.2711708535
 10
661.2307234996
 20
-356.6945964804
 10
664.2249041401
 20
-363.1871058393
 10
666.9390424671
 20
-369.7342116031
 10
669.3670821765
 20
-376.3213046188
 10
671.5036053625
 20
-382.9336865062
 10
673.3438446063
 20
-389.5566024556
 10
674.8836936147
 20
-396.1752741518
 10
676.1197163823
 20
-402.7749327504
 10
677.0491548591
 20
-409.3408518323
 10
677.6699351044
 20
-415.8583802646
 10
677.9806719147
 20
-422.3129748929
 10
677.9806719147
 20
-428.6902329927
 10
677.6699351044
 20
-434.9759244075
 10
677.0491548591
 20
-441.1560233018
 10
676.1197163823
 20
-447.2167394587
 10
674.8836936147
 20
-453.1445490503
 10
673.3438446063
 20
-458.9262248156
 10
671.5036053625
 20
-464.5488655751
 10
669.3670821765
 20
-469.9999250189
 10
666.9390424671
 20
-475.2672397017
 10
664.2249041401
 20
-480.3390561849
 10
661.2307234996
 20
-485.2040572627
 10
657.9631817333
 20
-489.8513872153
 10
654.4295700046
 20
-494.2706760325
 10
650.637773183
 20
-498.4520625528
 10
646.5962522498
 20
-502.3862164679
 10
642.3140254186
 20
-506.064359142
 10
637.8006480119
 20
-509.4782832007
 10
633.0661911396
 20
-512.6203708444
 10
628.1212192261
 20
-515.4836108469
 10
622.9767664375
 20
-518.0616142003
 10
617.6443120595
 20
-520.348628371
 10
612.1357548829
 20
-522.339550136
 10
606.4633866527
 20
-524.0299369705
 10
600.6398646406
 20
-525.4160169604
 10
594.6781834012
 20
-526.4946972193
 10
588.5916457766
 20
-527.2635707897
 10
582.3938332121
 20
-527.7209220141
 10
576.0985754511
 20
-527.8657303631
 10
569.7199196752
 20
-527.6976727125
 10
563.2720991597
 20
-527.2171240647
 10
556.7695015133
 20
-526.4251567117
 10
550.2266365742
 20
-525.3235378423
 10
543.6581040324
 20
-523.914725599
 10
537.0785608523
 20
-522.2018635927
 10
530.5026885677
 20
-520.1887738884
 10
523.945160521
 20
-517.8799484763
 10
517.4206091212
 20
-515.2805392488
 10
510.9435931938
 20
-512.3963465042
 10
504.5285654941
 20
-509.2338060044
 10
498.1898404573
 20
-505.7999746139
 10
491.9415622574
 20
-502.1025145531
 10
485.7976732464
 20
-498.1496763013
 10
479.7718828431
 20
-493.9502801862
 10
473.8776369421
 20
-489.5136967027
 10
468.1280879107
 20
-484.8498256033
 10
462.5360652411
 20
-479.9690738081
 10
457.1140469225
 20
-474.8823321828
 10
451.8741315977
 20
-469.6009512371
 10
446.828011567
 20
-464.136715797
 10
441.9869466971
 20
-458.5018187084
 10
437.3617392969
 20
-452.70883363
 10
432.9627100125
 20
-446.7706869768
 10
428.7996747984
 20
-440.7006290759
 10
424.881923014
 20
-434.5122046
 10
421.2181966955
 20
-428.2192223439
 10
417.816671049
 20
-421.8357244118
 10
414.6849362081
 20
-415.3759548836
 10
411.8299802979
 20
-408.854328031
 10
409.2581738414
 20
-402.2853961537
 10
406.9752555444
 20
-395.6838171073
 10
404.9863194904
 20
-389.064321596
 10
403.2958037733
 20
-382.4416803027
 10
401.9074805948
 20
-375.8306709297
 10
400.8244478468
 20
-369.2460452239
 10
400.0491221987
 20
-362.7024960601
 10
399.5832337054
 20
-356.2146246551
 10
399.4278219461
 20
-349.7969079869
  0
LWPOLYLINE
  5
C4
330
1F
100
AcDbEntity
  8
0
  6
Continuous
 62
     7
370
    25
100
AcDbPolyline
 90
      121
 70
   128
 43
0.0
 10
424.7221802261
 20
-356.6713725749
 10
424.8784153141
 20
-350.9312935169
 10
425.3466923487
 20
-345.2918703152
 10
426.1257278151
 20
-339.7685602365
 10
427.2133864311
 20
-334.37650229
 10
428.6066870002
 20
-329.1304757317
 10
430.3018105822
 20
-324.0448595558
 10
432.2941109614
 20
-319.1335930826
 10
434.5781273808
 20
-314.4101377522
 10
437.1475995102
 20
-309.8874402273
 10
439.9954846052
 20
-305.5778969075
 10
443.1139768105
 20
-301.4933199515
 10
446.4945285558
 20
-297.6449049008
 10
450.1278739838
 20
-294.0431999935
 10
454.0040543473
 20
-290.6980772525
 10
458.1124453052
 20
-287.6187054266
 10
462.4417860435
 20
-284.8135248601
 10
466.9802101402
 20
-282.2902243577
 10
471.7152780903
 20
-280.0557201109
 10
476.6340114017
 20
-278.1161367405
 10
481.7229281682
 20
-276.4767905095
 10
486.9680800228
 20
-275.1421747522
 10
492.3550903688
 20
-274.1159475576
 10
497.8691937852
 20
-273.4009217429
 10
503.4952764979
 20
-272.9990571444
 10
509.2179178053
 20
-272.9114552449
 10
515.0214323453
 20
-273.1383561552
 10
520.8899130879
 20
-273.6791379556
 10
526.8072749353
 20
-274.5323184008
 10
532.7572988101
 20
-275.6955589825
 10
538.7236761103
 20
-277.1656713391
 10
544.6900534105
 20
-278.9386259949
 10
550.6400772853
 20
-281.0095634043
 10
556.5574391328
 20
-283.372807272
 10
562.4259198754
 20
-286.0218801106
 10
568.2294344153
 20
-288.9495209957
 10
573.9520757227
 20
-292.1477054671
 10
579.5781584354
 20
-295.6076675236
 10
585.0922618519
 20
-299.3199236495
 10
590.4792721979
 20
-303.2742988089
 10
595.7244240524
 20
-307.4599543343
 10
600.813340819
 20
-311.8654176349
 10
605.7320741303
 20
-316.478613642
 10
610.4671420804
 20
-321.2868979061
 10
615.0055661771
 20
-326.277091254
 10
619.3349069155
 20
-331.4355159128
 10
623.4432978734
 20
-336.7480329991
 10
627.3194782368
 20
-342.2000812727
 10
630.9528236648
 20
-347.7767170483
 10
634.3333754102
 20
-353.4626551548
 10
637.4518676155
 20
-359.2423108312
 10
640.2997527104
 20
-365.099842443
 10
642.8692248398
 20
-371.0191949032
 10
645.1532412592
 20
-376.9841436781
 10
647.1455416384
 20
-382.9783392577
 10
648.8406652205
 20
-388.9853519687
 10
650.2339657895
 20
-394.9887170067
 10
651.3216244056
 20
-400.9719795654
 10
652.1006598719
 20
-406.9187399382
 10
652.5689369065
 20
-412.812698468
 10
652.7251719945
 20
-418.6377002244
 10
652.5689369065
 20
-424.3777792823
 10
652.1006598719
 20
-430.0172024841
 10
651.3216244056
 20
-435.5405125627
 10
650.2339657895
 20
-440.9325705092
 10
648.8406652205
 20
-446.1785970675
 10
647.1455416384
 20
-451.2642132435
 10
645.1532412592
 20
-456.1754797167
 10
642.8692248398
 20
-460.8989350471
 10
640.2997527104
 20
-465.421632572
 10
637.4518676155
 20
-469.7311758917
 10
634.3333754102
 20
-473.8157528477
 10
630.9528236648
 20
-477.6641678985
 10
627.3194782368
 20
-481.2658728057
 10
623.4432978734
 20
-484.6109955468
 10
619.3349069155
 20
-487.6903673726
 10
615.0055661771
 20
-490.4955479392
 10
610.4671420804
 20
-493.0188484415
 10
605.7320741303
 20
-495.2533526883
 10
600.813340819
 20
-497.1929360588
 10
595.7244240524
 20
-498.8322822897
 10
590.4792721979
 20
-500.166898047
 10
585.0922618519
 20
-501.1931252417
 10
579.5781584354
 20
-501.9081510563
 10
573.9520757227
 20
-502.3100156548
 10
568.2294344153
 20
-502.3976175543
 10
562.4259198754
 20
-502.1707166441
 10
556.5574391328
 20
-501.6299348437
 10
550.6400772853
 20
-500.7767543985
 10
544.6900534105
 20
-499.6135138168
 10
538.7236761103
 20
-498.1434014601
 10
532.7572988101
 20
-496.3704468044
 10
526.8072749353
 20
-494.2995093949
 10
520.8899130879
 20
-491.9362655273
 10
515.0214323453
 20
-489.2871926887
 10
509.2179178053
 20
-486.3595518036
 10
503.4952764979
 20
-483.1613673321
 10
497.8691937852
 20
-479.7014052757
 10
492.3550903688
 20
-475.9891491498
 10
486.9680800228
 20
-472.0347739904
 10
481.7229281682
 20
-467.849118465
 10
476.6340114017
 20
-463.4436551643
 10
471.7152780903
 20
-458.8304591572
 10
466.9802101402
 20
-454.0221748932
 10
462.4417860435
 20
-449.0319815452
 10
458.1124453052
 20
-443.8735568864
 10
454.0040543473
 20
-438.5610398002
 10
450.1278739838
 20
-433.1089915266
 10
446.4945285558
 20
-427.532355751
 10
443.1139768105
 20
-421.8464176444
 10
439.9954846052
 20
-416.066761968
 10
437.1475995102
 20
-410.2092303562
 10
434.5781273808
 20
-404.2898778961
 10
432.2941109614
 20
-398.3249291212
 10
430.3018105822
 20
-392.3307335415
 10
428.6066870002
 20
-386.3237208306
 10
427.2133864311
 20
-380.3203557926
 10
426.1257278151
 20
-374.3370932338
 10
425.3466923487
 20
-368.3903328611
 10
424.8784153141
 20
-362.4963743312
 10
424.7221802261
 20
-356.6713725749
  0
LWPOLYLINE
  5
C5
330
1F
100
AcDbEntity
  8
0
  6
Continuous
 62
     7
370
    25
100
AcDbPolyline
 90
       69
 70
   128
 43
0.0
 10
501.5178467959
 20
-203.8831901054
 10
501.6041554715
 20
-203.7990623216
 10
505.7671906856
 20
-199.991851957
 10
510.16621997
 20
-196.4448291032
 10
514.7914273702
 20
-193.1659085552
 10
519.6324922401
 20
-190.1624068668
 10
524.6786122708
 20
-187.4410260249
 10
529.9185275956
 20
-185.0078384941
 10
535.3405459142
 20
-182.8682736673
 10
540.9325685838
 20
-181.0271057502
 10
546.6821176152
 20
-179.4884431084
 10
552.5763635162
 20
-178.2557190998
 10
558.6021539195
 20
-177.3316844139
 10
564.7460429305
 20
-176.7184009332
 10
570.9943211304
 20
-176.417237133
 10
577.3330461672
 20
-176.4288650276
 10
583.7480738669
 20
-176.7532586705
 10
590.2250897943
 20
-177.3896942127
 10
596.749641194
 20
-178.3367515177
 10
603.3071692408
 20
-179.5923173302
 10
609.8830415254
 20
-181.1535899919
 10
616.4625847055
 20
-183.0170856932
 10
623.0311172473
 20
-185.1786462464
 10
629.5739821864
 20
-187.6334483646
 10
636.0765798328
 20
-190.3760144245
 10
642.5244003483
 20
-193.4002246888
 10
648.9030561241
 20
-196.6993309619
 10
655.1983138852
 20
-200.2659716476
 10
661.3961264496
 20
-204.0921881759
 10
667.4826640743
 20
-208.1694427617
 10
673.4443453137
 20
-212.4886374556
 10
679.2678673258
 20
-217.0401344453
 10
684.940235556
 20
-221.8137775614
 10
690.4487927326
 20
-226.7989149395
 10
695.7812471106
 20
-231.9844227887
 10
700.9256998992
 20
-237.3587302133
 10
705.8706718127
 20
-242.9098450322
 10
710.605128685
 20
-248.6253805374
 10
715.1185060917
 20
-254.4925831344
 10
719.4007329229
 20
-260.4983607999
 10
723.4422538561
 20
-266.6293122957
 10
727.2340506777
 20
-272.8717570715
 10
730.7676624064
 20
-279.2117657921
 10
734.0352041727
 20
-285.635191419
 10
737.0293848132
 20
-292.1277007779
 10
739.7435231402
 20
-298.6748065417
 10
742.1715628496
 20
-305.2618995573
 10
744.3080860356
 20
-311.8742814447
 10
746.1483252794
 20
-318.4971973941
 10
747.6881742878
 20
-325.1158690904
 10
748.9241970554
 20
-331.7155276889
 10
749.8536355322
 20
-338.2814467708
 10
750.4744157775
 20
-344.7989752031
 10
750.7851525878
 20
-351.2535698314
 10
750.7851525878
 20
-357.6308279312
 10
750.4744157775
 20
-363.916519346
 10
749.8536355322
 20
-370.0966182404
 10
748.9241970554
 20
-376.1573343972
 10
747.6881742878
 20
-382.0851439888
 10
746.1483252794
 20
-387.8668197541
 10
744.3080860356
 20
-393.4894605137
 10
742.1715628496
 20
-398.9405199574
 10
739.7435231402
 20
-404.2078346402
 10
737.0293848132
 20
-409.2796511234
 10
734.0352041727
 20
-414.1446522012
 10
730.7676624064
 20
-418.7919821538
 10
727.2340506777
 20
-423.211270971
 10
723.4422538561
 20
-427.3926574913
 10
721.5384667709
 20
-429.3070725709
  0
LWPOLYLINE
  5
C6
330
1F
100
AcDbEntity
  8
0
  6
Continuous
 62
     7
370
    25
100
AcDbPolyline
 90
        3
 70
   128
 43
0.0
 10
499.0012003352
 20
-284.1727718198
 10
499.1574354232
 20
-278.4326927618
 10
499.5763047801
 20
-273.2449027546
  0
LWPOLYLINE
  5
C7
330
1F
100
AcDbEntity
  8
0
  6
Continuous
 62
     7
370
    25
100
AcDbPolyline
 90
       38
 70
   128
 43
0.0
 10
652.1500675497
 20
-429.5655692895
 10
648.2310958318
 20
-429.8114148997
 10
642.5084545244
 20
-429.8990167992
 10
636.7049399845
 20
-429.6721158889
 10
630.8364592419
 20
-429.1313340886
 10
624.9190973944
 20
-428.2781536434
 10
618.9690735196
 20
-427.1149130617
 10
613.0026962194
 20
-425.644800705
 10
607.0363189192
 20
-423.8718460493
 10
601.0862950444
 20
-421.8009086398
 10
595.168933197
 20
-419.4376647722
 10
589.3004524544
 20
-416.7885919336
 10
583.4969379144
 20
-413.8609510485
 10
577.774296607
 20
-410.662766577
 10
572.1482138943
 20
-407.2028045206
 10
566.6341104779
 20
-403.4905483947
 10
561.2471001319
 20
-399.5361732353
 10
556.0019482773
 20
-395.3505177098
 10
550.9130315108
 20
-390.9450544092
 10
545.9942981994
 20
-386.3318584021
 10
541.2592302493
 20
-381.5235741381
 10
536.7208061526
 20
-376.5333807901
 10
532.3914654143
 20
-371.3749561313
 10
528.2830744564
 20
-366.0624390451
 10
524.4068940929
 20
-360.6103907715
 10
520.7735486649
 20
-355.0337549959
 10
517.3929969196
 20
-349.3478168893
 10
514.2745047143
 20
-343.5681612129
 10
511.4266196193
 20
-337.7106296011
 10
508.8571474899
 20
-331.791277141
 10
506.5731310705
 20
-325.8263283661
 10
504.5808306913
 20
-319.8321327864
 10
502.8857071093
 20
-313.8251200755
 10
501.4924065402
 20
-307.8217550375
 10
500.4047479242
 20
-301.8384924787
 10
499.6257124578
 20
-295.891732106
 10
499.1574354232
 20
-289.9977735761
 10
499.0012003352
 20
-284.1727718198
  0
LWPOLYLINE
  5
C8
330
1F
100
AcDbEntity
  8
0
  6
Continuous
 62
     7
370
    25
100
AcDbPolyline
 90
       87
 70
   128
 43
0.0
 10
483.6755724363
 20
-221.2977968606
 10
484.9896281857
 20
-217.5958194687
 10
487.2683762578
 20
-212.0009125845
 10
489.8365925166
 20
-206.5916374958
 10
492.6889539416
 20
-201.379205751
 10
495.8195485782
 20
-196.3744209111
 10
499.2218877911
 20
-191.5876561568
 10
502.8889197125
 20
-187.0288327891
 10
506.8130438589
 20
-182.7073996656
 10
510.9861268837
 20
-178.6323136162
 10
515.3995194351
 20
-174.8120208793
 10
520.0440740831
 20
-171.2544395947
 10
524.910164279
 20
-167.9669433931
 10
529.9877043077
 20
-164.9563461123
 10
535.266170192
 20
-162.2288876749
 10
540.7346215056
 20
-159.790221155
 10
546.3817240478
 20
-157.6454010614
 10
552.1957733364
 20
-155.7988728613
 10
558.1647188663
 20
-154.2544637663
 10
564.2761890864
 20
-153.0153748001
 10
570.5175170416
 20
-152.0841741639
 10
576.8757666264
 20
-151.4627919131
 10
583.3377593976
 20
-151.1525159573
 10
589.8901018885
 20
-151.1539893909
 10
596.5192133687
 20
-151.4672091599
 10
603.2113539922
 20
-152.0915260686
 10
609.9526532758
 20
-153.0256461247
 10
616.7291388472
 20
-154.2676332219
 10
623.5267654053
 20
-155.8149131522
 10
630.3314438309
 20
-157.6642789416
 10
637.129070389
 20
-159.8118974973
 10
643.9055559604
 20
-162.2533175517
 10
650.646855244
 20
-164.983478889
 10
657.3389958676
 20
-167.9967228328
 10
663.9681073477
 20
-171.2868039751
 10
670.5204498386
 20
-174.8469031201
 10
676.9824426099
 20
-178.6696414188
 10
683.3406921946
 20
-182.7470956623
 10
689.5820201498
 20
-187.070814704
 10
695.6934903699
 20
-191.6318369759
 10
701.6624358998
 20
-196.4207090629
 10
707.4764851884
 20
-201.4275052963
 10
713.1235877306
 20
-206.6418483263
 10
718.5920390442
 20
-212.0529306307
 10
723.8705049286
 20
-217.6495369152
 10
728.9480449572
 20
-223.4200673585
 10
733.8141351531
 20
-229.3525616552
 10
738.4586898011
 20
-235.4347238049
 10
742.8720823525
 20
-241.6539475977
 10
747.0451653773
 20
-247.9973427426
 10
750.9692895237
 20
-254.4517615845
 10
754.6363214451
 20
-261.0038263547
 10
758.038660658
 20
-267.6399568984
 10
761.1692552946
 20
-274.3463988218
 10
764.0216167196
 20
-281.1092519997
 10
766.5898329784
 20
-287.9144993863
 10
768.8685810505
 20
-294.7480360672
 10
770.8531378827
 20
-301.595698494
 10
772.5393901777
 20
-308.4432938406
 10
773.9238429203
 20
-315.2766294201
 10
775.0036266207
 20
-322.081542101
 10
775.7765032623
 20
-328.8439276626
 10
776.2408709402
 20
-335.5497700281
 10
776.3957671816
 20
-342.1851703152
 10
776.2408709402
 20
-348.7363756436
 10
775.7765032623
 20
-355.1898076397
 10
775.0036266207
 20
-361.5320905804
 10
773.9238429203
 20
-367.7500791157
 10
772.5393901777
 20
-373.8308855148
 10
770.8531378827
 20
-379.7619063779
 10
768.8685810505
 20
-385.5308487586
 10
766.5898329784
 20
-391.1257556427
 10
764.0216167196
 20
-396.5350307315
 10
761.1692552946
 20
-401.7474624762
 10
758.038660658
 20
-406.7522473161
 10
754.6363214451
 20
-411.5390120704
 10
750.9692895237
 20
-416.0978354381
 10
747.0451653773
 20
-420.4192685617
 10
742.8720823525
 20
-424.494354611
 10
738.4586898011
 20
-428.314647348
 10
733.8141351531
 20
-431.8722286325
 10
728.9480449572
 20
-435.1597248341
 10
723.8705049286
 20
-438.170322115
 10
718.5920390442
 20
-440.8977805524
 10
713.1235877306
 20
-443.3364470722
 10
707.4764851884
 20
-445.4812671658
 10
703.6961924113
 20
-446.7216793261
  0
LWPOLYLINE
  5
C9
330
1F
100
AcDbEntity
  8
0
  6
Continuous
 62
     7
370
    25
100
AcDbPolyline
 90
       74
 70
   128
 43
0.0
 10
512.2987884837
 20
-151.4396364555
 10
515.7197841734
 20
-148.2427582567
 10
520.4304126064
 20
-144.2646294945
 10
525.3716472198
 20
-140.5518816447
 10
530.534211362
 20
-137.1114850033
 10
535.9084128582
 20
-133.9498985557
 10
541.4841622066
 20
-131.0730578499
 10
547.2509915204
 20
-128.4863638538
 10
553.1980741801
 20
-126.1946728152
 10
559.3142451595
 20
-124.2022871445
 10
565.5880219866
 20
-122.5129473376
 10
572.0076263009
 20
-121.1298249535
 10
578.5610059662
 20
-120.0555166599
 10
585.2358576968
 20
-119.2920393585
 10
592.019650156
 20
-118.840826398
 10
598.8996474824
 20
-118.7027248836
 10
605.8629331998
 20
-118.8779940866
 10
612.8964344669
 20
-119.3663049573
 10
619.9869466199
 20
-120.1667407431
 10
627.1211579633
 20
-121.2777987094
 10
634.2856747605
 20
-122.6973929609
 10
641.46704638
 20
-124.4228583579
 10
648.6517905469
 20
-126.4509555192
 10
655.8264186547
 20
-128.7778769045
 10
662.9774610888
 20
-131.3992539619
 10
670.0914925142
 20
-134.3101653299
 10
677.1551570804
 20
-137.5051460766
 10
684.155193495
 20
-140.9781979594
 10
691.0784599213
 20
-144.7228006864
 10
697.9119586498
 20
-148.7319241572
 10
704.6428605007
 20
-152.9980416613
 10
711.2585289091
 20
-157.513144009
 10
717.7465436488
 20
-162.2687545673
 10
724.09472415
 20
-167.2559451743
 10
730.2911523673
 20
-172.4653529007
 10
736.3241951539
 20
-177.8871976279
 10
742.1825261026
 20
-183.511300409
 10
747.855146809
 20
-189.3271025785
 10
753.3314075205
 20
-195.3236855756
 10
758.6010271299
 20
-201.4897914423
 10
763.6541124768
 20
-207.8138439591
 10
768.4811769217
 20
-214.2839703782
 10
773.0731581552
 20
-220.8880237134
 10
777.4214352126
 20
-227.6136055444
 10
781.5178446579
 20
-234.4480892941
 10
785.3546959104
 20
-241.3786439335
 10
788.9247856828
 20
-248.3922580704
 10
792.2214115047
 20
-255.475764377
 10
795.2383843054
 20
-262.6158643104
 10
797.9700400339
 20
-269.7991530791
 10
800.4112502917
 20
-277.0121448089
 10
802.5574319619
 20
-284.2412978615
 10
804.4045558126
 20
-291.4730402575
 10
805.9491540617
 20
-298.6937951561
 10
807.1883268874
 20
-305.8900063445
 10
808.1197478722
 20
-313.048163688
 10
808.7416683705
 20
-320.1548284943
 10
809.0529207916
 20
-327.1966587427
 10
809.0529207916
 20
-334.1604341328
 10
808.7416683705
 20
-341.0330809037
 10
808.1197478722
 20
-347.8016963794
 10
807.1883268874
 20
-354.4535731915
 10
805.9491540617
 20
-360.9762231364
 10
804.4045558126
 20
-367.3574006203
 10
802.5574319619
 20
-373.5851256492
 10
800.4112502917
 20
-379.6477063201
 10
797.9700400339
 20
-385.5337607713
 10
795.2383843054
 20
-391.2322385506
 10
792.2214115047
 20
-396.7324413614
 10
788.9247856828
 20
-402.0240431475
 10
785.3546959104
 20
-407.0971094796
 10
781.5178446579
 20
-411.9421162057
 10
777.4214352126
 20
-416.5499673319
 10
774.2280979776
 20
-419.8014012954
  0
LWPOLYLINE
  5
CA
330
1F
100
AcDbEntity
  8
0
  6
Continuous
 62
     7
370
    25
100
AcDbPolyline
 90
      100
 70
   128
 43
0.0
 10
461.7259504845
 20
-242.7213007823
 10
462.4999186132
 20
-236.0408399444
 10
463.5854702996
 20
-229.4520301592
 10
464.977682592
 20
-222.9986018124
 10
466.6739417572
 20
-216.6926705415
 10
468.671063246
 20
-210.5460750734
 10
470.9652976714
 20
-204.570354999
 10
473.552337848
 20
-198.7767291082
 10
476.4273268782
 20
-193.1760743284
 10
479.5848672705
 20
-187.7789053037
 10
483.0190310727
 20
-182.595354655
 10
486.7233710011
 20
-177.635153957
 10
490.6909325446
 20
-172.9076154682
 10
494.9142670209
 20
-168.4216146482
 10
499.3854455608
 20
-164.1855734948
 10
504.0960739938
 20
-160.2074447327
 10
509.0373086073
 20
-156.4946968828
 10
514.1998727495
 20
-153.0543002415
 10
519.5740742456
 20
-149.8927137938
 10
525.149823594
 20
-147.015873088
 10
530.9166529078
 20
-144.429179092
 10
536.8637355676
 20
-142.1374880534
 10
542.979906547
 20
-140.1451023827
 10
549.2536833741
 20
-138.4557625758
 10
555.6732876884
 20
-137.0726401916
 10
562.2266673536
 20
-135.9983318981
 10
568.9015190842
 20
-135.2348545966
 10
575.6853115434
 20
-134.7836416361
 10
582.5653088698
 20
-134.6455401218
 10
589.5285945872
 20
-134.8208093248
 10
596.5620958543
 20
-135.3091201955
 10
603.6526080074
 20
-136.1095559812
 10
610.7868193507
 20
-137.2206139475
 10
617.951336148
 20
-138.6402081991
 10
625.1327077674
 20
-140.365673596
 10
632.3174519343
 20
-142.3937707574
 10
639.4920800421
 20
-144.7206921426
 10
646.6431224762
 20
-147.3420692
 10
653.7571539017
 20
-150.2529805681
 10
660.8208184678
 20
-153.4479613147
 10
667.8208548825
 20
-156.9210131976
 10
674.7441213087
 20
-160.6656159246
 10
681.5776200372
 20
-164.6747393953
 10
688.3085218881
 20
-168.9408568995
 10
694.9241902965
 20
-173.4559592471
 10
701.4122050362
 20
-178.2115698054
 10
707.7603855375
 20
-183.1987604124
 10
713.9568137547
 20
-188.4081681389
 10
719.9898565414
 20
-193.8300128661
 10
725.84818749
 20
-199.4541156471
 10
731.5208081965
 20
-205.2699178167
 10
736.997068908
 20
-211.2665008138
 10
742.2666885173
 20
-217.4326066805
 10
747.3197738643
 20
-223.7566591973
 10
752.1468383091
 20
-230.2267856164
 10
756.7388195427
 20
-236.8308389515
 10
761.0870966
 20
-243.5564207825
 10
765.1835060453
 20
-250.3909045323
 10
769.0203572978
 20
-257.3214591717
 10
772.5904470703
 20
-264.3350733085
 10
775.8870728922
 20
-271.4185796151
 10
778.9040456929
 20
-278.5586795485
 10
781.6357014213
 20
-285.7419683172
 10
784.0769116792
 20
-292.954960047
 10
786.2230933494
 20
-300.1841130996
 10
788.0702172
 20
-307.4158554956
 10
789.6148154491
 20
-314.6366103942
 10
790.8539882748
 20
-321.8328215826
 10
791.7854092596
 20
-328.9909789262
 10
792.4073297579
 20
-336.0976437325
 10
792.7185821791
 20
-343.1394739809
 10
792.7185821791
 20
-350.1032493709
 10
792.4073297579
 20
-356.9758961419
 10
791.7854092596
 20
-363.7445116176
 10
790.8539882748
 20
-370.3963884297
 10
789.6148154491
 20
-376.9190383745
 10
788.0702172
 20
-383.3002158584
 10
786.2230933494
 20
-389.5279408873
 10
784.0769116792
 20
-395.5905215583
 10
781.6357014213
 20
-401.4765760095
 10
778.9040456929
 20
-407.1750537888
 10
775.8870728922
 20
-412.6752565995
 10
772.5904470703
 20
-417.9668583857
 10
769.0203572978
 20
-423.0399247178
 10
765.1835060453
 20
-427.8849314439
 10
761.0870966
 20
-432.49278257
 10
756.7388195427
 20
-436.8548273373
 10
752.1468383091
 20
-440.9628764623
 10
747.3197738643
 20
-444.8092175122
 10
742.2666885173
 20
-448.3866293834
 10
736.997068908
 20
-451.6883958591
 10
731.5208081964
 20
-454.7083182176
 10
725.84818749
 20
-457.4407268702
 10
719.9898565414
 20
-459.8804920052
 10
713.9568137547
 20
-462.0230332186
 10
707.7603855375
 20
-463.8643281129
 10
701.4122050362
 20
-465.4009198496
 10
694.9241902965
 20
-466.629923638
 10
688.3085218881
 20
-467.5490321521
 10
681.7465704595
 20
-468.1451832479
  0
LWPOLYLINE
  5
CB
330
1F
100
AcDbEntity
  8
0
  6
Continuous
 62
     7
370
    25
100
AcDbPolyline
 90
       33
 70
   128
 43
0.0
 10
652.7251604497
 20
-418.5879724277
 10
651.3448292705
 20
-418.3000179211
 10
644.8806503724
 20
-416.7686573042
 10
638.4127518461
 20
-414.9356517663
 10
631.9560100654
 20
-412.8052172788
 10
625.5252757433
 20
-410.3822539093
 10
619.1353397748
 20
-407.6723345511
 10
612.8008992175
 20
-404.6816921057
 10
606.5365234876
 20
-401.4172051465
 10
600.3566208501
 20
-397.8863820981
 10
594.275405279
 20
-394.0973439667
 10
588.306863765
 20
-390.0588056613
 10
582.4647241449
 20
-385.7800559497
 10
576.7624235271
 20
-381.270936093
 10
571.2130773856
 20
-376.5418172117
 10
565.8294493944
 20
-371.6035764305
 10
560.6239220705
 20
-366.4675718616
 10
555.6084682934
 20
-361.14561648
 10
550.7946237677
 20
-355.6499509538
 10
546.1934604899
 20
-349.9932154896
 10
541.815561283
 20
-344.1884207603
 10
537.6709954556
 20
-338.2489179799
 10
533.7692956419
 20
-332.1883681951
 10
530.1194358763
 20
-326.0207108645
 10
526.7298109535
 20
-319.7601317977
 10
523.6082171192
 20
-313.4210305272
 10
520.7618341394
 20
-307.017987189
 10
518.1972087862
 20
-300.5657289879
 10
515.9202397799
 20
-294.0790963247
 10
513.9361642224
 20
-287.5730086623
 10
512.2495455509
 20
-281.0624302108
 10
510.8642630425
 20
-274.5623355094
 10
510.5646214278
 20
-272.936257405
  0
ENDSEC
  0
SECTION
  2
OBJECTS
  0
DICTIONARY
  5
C
330
0
100
AcDbDictionary
281
     1
  3
ACAD_GROUP
350
D
  3
ACAD_LAYOUT
350
1A
  3
ACAD_MLINESTYLE
350
17
  3
ACAD_PLOTSETTINGS
350
19
  3
ACAD_PLOTSTYLENAME
350
E
  3
ACAD_SCALELIST
350
47
  0
DICTIONARY
  5
D
102
{ACAD_REACTORS
330
C
102
}
330
C
100
AcDbDictionary
281
     1
  0
DICTIONARY
  5
1A
102
{ACAD_REACTORS
330
C
102
}
330
C
100
AcDbDictionary
281
     1
  3
Layout1
350
1E
  3
Layout2
350
26
  3
Model
350
22
  0
DICTIONARY
  5
17
102
{ACAD_REACTORS
330
C
102
}
330
C
100
AcDbDictionary
281
     1
  3
Standard
350
18
  0
DICTIONARY
  5
19
102
{ACAD_REACTORS
330
C
102
}
330
C
100
AcDbDictionary
281
     1
  0
ACDBDICTIONARYWDFLT
  5
E
102
{ACAD_REACTORS
330
C
102
}
330
C
100
AcDbDictionary
281
     1
  3
Normal
350
F
100
AcDbDictionaryWithDefault
340
F
  0
DICTIONARY
  5
47
102
{ACAD_REACTORS
330
C
102
}
330
C
100
AcDbDictionary
281
     1
  3
A0
350
48
  3
A1
350
49
  3
A2
350
4A
  3
A3
350
4B
  3
A4
350
4C
  3
A5
350
4D
  3
A6
350
4E
  3
A7
350
4F
  3
A8
350
50
  3
A9
350
51
  3
B0
350
52
  3
B1
350
53
  3
B2
350
54
  3
B3
350
55
  3
B4
350
56
  3
B5
350
57
  3
B6
350
58
  3
B7
350
59
  3
B8
350
5A
  3
B9
350
5B
  3
C0
350
5C
  3
C1
350
5D
  3
C2
350
5E
  3
C3
350
5F
  3
C4
350
60
  3
C5
350
61
  3
C6
350
62
  3
C7
350
63
  3
C8
350
64
  3
C9
350
65
  3
D0
350
66
  3
D1
350
67
  3
D2
350
68
  0
LAYOUT
  5
1E
102
{ACAD_REACTORS
330
1A
102
}
330
1A
100
AcDbPlotSettings
  1

  2
none_device
  4

  6

 40
0.0
 41
0.0
 42
0.0
 43
0.0
 44
0.0
 45
0.0
 46
0.0
 47
0.0
 48
0.0
 49
0.0
140
0.0
141
0.0
142
1.0
143
1.0
 70
   688
 72
     1
 73
     0
 74
     5
  7

 75
    16
147
1.0
148
0.0
149
0.0
100
AcDbLayout
  1
Layout1
 70
     1
 71
     1
 10
0.0
 20
0.0
 11
420.0
 21
297.0
 12
0.0
 22
0.0
 32
0.0
 14
1.0000000000E+20
 24
1.0000000000E+20
 34
1.0000000000E+20
 15
-1.0000000000E+20
 25
-1.0000000000E+20
 35
-1.0000000000E+20
146
0.0
 13
0.0
 23
0.0
 33
0.0
 16
1.0
 26
0.0
 36
0.0
 17
0.0
 27
1.0
 37
0.0
 76
     0
330
1B
  0
LAYOUT
  5
26
102
{ACAD_REACTORS
330
1A
102
}
330
1A
100
AcDbPlotSettings
  1

  2
none_device
  4

  6

 40
0.0
 41
0.0
 42
0.0
 43
0.0
 44
0.0
 45
0.0
 46
0.0
 47
0.0
 48
0.0
 49
0.0
140
0.0
141
0.0
142
1.0
143
1.0
 70
   688
 72
     1
 73
     0
 74
     5
  7

 75
    16
147
1.0
148
0.0
149
0.0
100
AcDbLayout
  1
Layout2
 70
     1
 71
     2
 10
0.0
 20
0.0
 11
0.0
 21
0.0
 12
0.0
 22
0.0
 32
0.0
 14
0.0
 24
0.0
 34
0.0
 15
0.0
 25
0.0
 35
0.0
146
0.0
 13
0.0
 23
0.0
 33
0.0
 16
1.0
 26
0.0
 36
0.0
 17
0.0
 27
1.0
 37
0.0
 76
     0
330
23
  0
LAYOUT
  5
22
102
{ACAD_REACTORS
330
1A
102
}
330
1A
100
AcDbPlotSettings
  1

  2
none_device
  4
Letter_(8.50_x_11.00_Inches)
  6

 40
6.35
 41
6.35
 42
6.35000508
 43
6.35000508
 44
215.9
 45
279.4
 46
0.0
 47
0.0
 48
0.0
 49
0.0
140
0.0
141
0.0
142
1.0
143
1.0
 70
  1712
 72
     1
 73
     0
 74
     0
  7

 75
     0
147
1.0
148
0.0
149
0.0
100
AcDbLayout
  1
Model
 70
     1
 71
     0
 10
0.0
 20
0.0
 11
279.4
 21
215.9
 12
0.0
 22
0.0
 32
0.0
 14
0.0
 24
0.0
 34
0.0
 15
279.4
 25
215.9
 35
0.0
146
0.0
 13
0.0
 23
0.0
 33
0.0
 16
1.0
 26
0.0
 36
0.0
 17
0.0
 27
1.0
 37
0.0
 76
     0
330
1F
331
29
  0
MLINESTYLE
  5
18
102
{ACAD_REACTORS
330
17
102
}
330
17
100
AcDbMlineStyle
  2
Standard
 70
     0
  3

 62
   256
 51
90.0
 52
90.0
 71
     2
 49
0.5
 62
   256
  6
BYLAYER
 49
-0.5
 62
   256
  6
BYLAYER
  0
ACDBPLACEHOLDER
  5
F
102
{ACAD_REACTORS
330
E
102
}
330
E
  0
SCALE
  5
48
102
{ACAD_REACTORS
330
47
102
}
330
47
100
AcDbScale
 70
     0
300
1:1
140
1.0
141
1.0
290
     1
  0
SCALE
  5
49
102
{ACAD_REACTORS
330
47
102
}
330
47
100
AcDbScale
 70
     0
300
1:2
140
1.0
141
2.0
290
     0
  0
SCALE
  5
4A
102
{ACAD_REACTORS
330
47
102
}
330
47
100
AcDbScale
 70
     0
300
1:4
140
1.0
141
4.0
290
     0
  0
SCALE
  5
4B
102
{ACAD_REACTORS
330
47
102
}
330
47
100
AcDbScale
 70
     0
300
1:5
140
1.0
141
5.0
290
     0
  0
SCALE
  5
4C
102
{ACAD_REACTORS
330
47
102
}
330
47
100
AcDbScale
 70
     0
300
1:8
140
1.0
141
8.0
290
     0
  0
SCALE
  5
4D
102
{ACAD_REACTORS
330
47
102
}
330
47
100
AcDbScale
 70
     0
300
1:10
140
1.0
141
10.0
290
     0
  0
SCALE
  5
4E
102
{ACAD_REACTORS
330
47
102
}
330
47
100
AcDbScale
 70
     0
300
1:16
140
1.0
141
16.0
290
     0
  0
SCALE
  5
4F
102
{ACAD_REACTORS
330
47
102
}
330
47
100
AcDbScale
 70
     0
300
1:20
140
1.0
141
20.0
290
     0
  0
SCALE
  5
50
102
{ACAD_REACTORS
330
47
102
}
330
47
100
AcDbScale
 70
     0
300
1:30
140
1.0
141
30.0
290
     0
  0
SCALE
  5
51
102
{ACAD_REACTORS
330
47
102
}
330
47
100
AcDbScale
 70
     0
300
1:40
140
1.0
141
40.0
290
     0
  0
SCALE
  5
52
102
{ACAD_REACTORS
330
47
102
}
330
47
100
AcDbScale
 70
     0
300
1:50
140
1.0
141
50.0
290
     0
  0
SCALE
  5
53
102
{ACAD_REACTORS
330
47
102
}
330
47
100
AcDbScale
 70
     0
300
1:100
140
1.0
141
100.0
290
     0
  0
SCALE
  5
54
102
{ACAD_REACTORS
330
47
102
}
330
47
100
AcDbScale
 70
     0
300
2:1
140
2.0
141
1.0
290
     0
  0
SCALE
  5
55
102
{ACAD_REACTORS
330
47
102
}
330
47
100
AcDbScale
 70
     0
300
4:1
140
4.0
141
1.0
290
     0
  0
SCALE
  5
56
102
{ACAD_REACTORS
330
47
102
}
330
47
100
AcDbScale
 70
     0
300
8:1
140
8.0
141
1.0
290
     0
  0
SCALE
  5
57
102
{ACAD_REACTORS
330
47
102
}
330
47
100
AcDbScale
 70
     0
300
10:1
140
10.0
141
1.0
290
     0
  0
SCALE
  5
58
102
{ACAD_REACTORS
330
47
102
}
330
47
100
AcDbScale
 70
     0
300
100:1
140
100.0
141
1.0
290
     0
  0
SCALE
  5
59
102
{ACAD_REACTORS
330
47
102
}
330
47
100
AcDbScale
 70
     0
300
1/128" = 1'-0"
140
0.0078125
141
12.0
290
     0
  0
SCALE
  5
5A
102
{ACAD_REACTORS
330
47
102
}
330
47
100
AcDbScale
 70
     0
300
1/64" = 1'-0"
140
0.015625
141
12.0
290
     0
  0
SCALE
  5
5B
102
{ACAD_REACTORS
330
47
102
}
330
47
100
AcDbScale
 70
     0
300
1/32" = 1'-0"
140
0.03125
141
12.0
290
     0
  0
SCALE
  5
5C
102
{ACAD_REACTORS
330
47
102
}
330
47
100
AcDbScale
 70
     0
300
1/16" = 1'-0"
140
0.0625
141
12.0
290
     0
  0
SCALE
  5
5D
102
{ACAD_REACTORS
330
47
102
}
330
47
100
AcDbScale
 70
     0
300
3/32" = 1'-0"
140
0.09375
141
12.0
290
     0
  0
SCALE
  5
5E
102
{ACAD_REACTORS
330
47
102
}
330
47
100
AcDbScale
 70
     0
300
1/8" = 1'-0"
140
0.125
141
12.0
290
     0
  0
SCALE
  5
5F
102
{ACAD_REACTORS
330
47
102
}
330
47
100
AcDbScale
 70
     0
300
3/16" = 1'-0"
140
0.1875
141
12.0
290
     0
  0
SCALE
  5
60
102
{ACAD_REACTORS
330
47
102
}
330
47
100
AcDbScale
 70
     0
300
1/4" = 1'-0"
140
0.25
141
12.0
290
     0
  0
SCALE
  5
61
102
{ACAD_REACTORS
330
47
102
}
330
47
100
AcDbScale
 70
     0
300
3/8" = 1'-0"
140
0.375
141
12.0
290
     0
  0
SCALE
  5
62
102
{ACAD_REACTORS
330
47
102
}
330
47
100
AcDbScale
 70
     0
300
1/2" = 1'-0"
140
0.5
141
12.0
290
     0
  0
SCALE
  5
63
102
{ACAD_REACTORS
330
47
102
}
330
47
100
AcDbScale
 70
     0
300
3/4" = 1'-0"
140
0.75
141
12.0
290
     0
  0
SCALE
  5
64
102
{ACAD_REACTORS
330
47
102
}
330
47
100
AcDbScale
 70
     0
300
1" = 1'-0"
140
1.0
141
12.0
290
     0
  0
SCALE
  5
65
102
{ACAD_REACTORS
330
47
102
}
330
47
100
AcDbScale
 70
     0
300
1-1/2" = 1'-0"
140
1.5
141
12.0
290
     0
  0
SCALE
  5
66
102
{ACAD_REACTORS
330
47
102
}
330
47
100
AcDbScale
 70
     0
300
3" = 1'-0"
140
3.0
141
12.0
290
     0
  0
SCALE
  5
67
102
{ACAD_REACTORS
330
47
102
}
330
47
100
AcDbScale
 70
     0
300
6" = 1'-0"
140
6.0
141
12.0
290
     0
  0
SCALE
  5
68
102
{ACAD_REACTORS
330
47
102
}
330
47
100
AcDbScale
 70
     0
300
1'-0" = 1'-0"
140
12.0
141
12.0
290
     0
  0
ENDSEC
  0
EOF
